LE CASTEL
wikiCASTEL - CALENDRIER - FORUM
Inscription - Rechercher - Liste des membres - FAQ
Dernière visite: 2019-09-16 19:09. Non connecté. Connexion.
Le Castel Forum Index » » Général » » Je suis parti Réponse

Sujet: Je suis parti

Salem (Membre)
2006-03-27 15:40
Inscrit: Nov 27, 2005 Messages: 39
Email | répondre en citant
Salut,

Je cherche les tabs de Je suis parti (et non les accords qui se trouvent déjà sur le castel).
Ça fait quelques temps que je tente de l'apprendre à l'oreille, mais celle-ci n'est pas encore assez développée pour découvrir la toune quasi-improvisée au complet.
Si quelqu'un a en sa possession ce tab (même en partie) j'apprécierais beaucoup qu'on le partage!

Plume de corbeau (Membre)
2006-03-27 22:43
Inscrit: Feb 19, 2005 Messages: 146
Email | répondre en citant
heu.. ben mettons que la dite toune semi improvisée existe en plusieurs versions...

alors faut dire laquelle version semi improvisée tu veux si c'est pour la tab. Y en + qu'une tu sais... Enfin c'est ce que je crois...

autre suggestion: s'attarder a découvrir les gammes, aider n'est pas un mot assez fort pour dire comment ça aide quand on semi improvise ou qu'on cherche a jouer un toune semi improvisée.



Salem (Membre)
2006-03-28 18:53
Inscrit: Nov 27, 2005 Messages: 39
Email | répondre en citant
Désolé! j'ai oublié de préciser que c'est la première version sur la vallée que je cherche.

Et comme j'ai dis, j'ai pas l'oreille très très développée. Je joue assez bien mais pour tabber ou trouver les accords, j'suis nul.

Bon allez flamez moi autant que vous voulez pour mon incompétence, au moins je l'avoue.

-----------------
PROMENEEEEEEUUUUUUR!!!!

Nouknitouk (Membre)
2006-03-29 12:39
Inscrit: Nov 03, 2003 Messages: 723
Email | répondre en citant
Non franchement pas question dte blaster pour ca.

Jvais t'aider.


Plume.. ctait brutal comme post haha (haha n'étant évidemment pas un vrai haha)

Pat

franx (Membre)
2006-03-29 21:38
Inscrit: Feb 11, 2005 Messages: 671
Email | répondre en citant
j'ai gossé un peu pour toi, c'est juste l'intro pis les accords des couplets et refrain, il y a d'autre "solo" genre plus loin mais ca sera pour un autre fois, ou bien mes confrère guiteux vont ptete ben te sortir le reste. techow

Intro
---------------------4-4--4-----4-4----------------1-1--4--- - ------------4--1-----
---------------------6-6--6-----4-4----------------1-1--6--- - ------------4--1-----
---------------------6-6--6-----5-5---5-3---------1-1--6---- - ------3----5--3----
--------6--5--------6-6--6-----6-6-------6-3-6---3-3--6--3-- - -3-6---6-6--1---
-3-4-3-------3-4---4-4--4-----6-6-------------6--3-3--4----6 - ----------6--1---
---------------------4-4--4--4--4-4-----------------1-1--4-- - ------------4--3-----

Couplets__________________Refrain
-1---4---4---1------------------4--1--1-1------------------- - --------------
-1---6---4---1------------------6--1--1-1------------------- - --------------
-1---6---5---3------------------6--3--1-1------------------- - --------------
-3---6---6---1------------------6--1--3-3------------------- - --------------
-3---4---6---1------------------4--1--3-3------------------- - --------------
-1---4---4---3------------------4--3--1-1------------------- - --------------


[ Ce Message a été édité par: franx le 2006-03-29 21:42 ]

Salem (Membre)
2006-03-29 22:58
Inscrit: Nov 27, 2005 Messages: 39
Email | répondre en citant
Merci beaucoup franx!

C'est plaisant à jouer.

-----------------
PROMENEEEEEEUUUUUUR!!!!

Réponse
Fermer ce Sujet Fermer ce Sujet Déplacer ce Sujet Effacer ce Sujet

Powered by phpBB Version 1.4.4
Copyright © 2000 - 2001 The phpBB Group
phpBB Created this page in 0.029 seconds.