LE CASTEL
wikiCASTEL - CALENDRIER - FORUM
Inscription - Rechercher - Liste des membres - FAQ
Dernière visite: 2024-02-27 01:16. Non connecté. Connexion.
Le Castel Forum Index » » Général » » Partition de guitare de Printemps, été Réponse

Sujet: Partition de guitare de Printemps, été

maxthewax (Membre)
2002-12-28 14:05
Inscrit: Dec 28, 2002 Messages: 42
Email | répondre en citant
J'aimerias savoir si quelqu'un peux trouver la partition de printemps, été.....moi je l'ai pas trouver apres une assez longue recherche sur le net....alors j'ai décidé de la faire.....j'ai déja quelques pistes et je crois etre sur la bonne voie....si quelqu'un voudrait bien m'aider a mettre la toune en partition je serais bien content....je prend toute les sugestions....

maxthewax@hotmail.com

maxthewax (Membre)
2002-12-28 19:22
Inscrit: Dec 28, 2002 Messages: 42
Email | répondre en citant


[ Ce Message a été édité par: maxthewax le 2002-12-28 19:27 ]

maxthewax (Membre)
2002-12-28 19:26
Inscrit: Dec 28, 2002 Messages: 42
Email | répondre en citant
Voici ou j'en suis pour l'instant:


Jean Leloup - Printemps Été

Intro

E----------------------------------------------------------- - ---
B---------2--0---0--2--------------------------------------- - -
G------2-------2-------2------------------------------------ - -
D---4---------------------4-----3--6--3--6--4--3--0-------
A--------------------------------------------------------4-- - --
E----------------------------------------------------------- - ---

Figure

E-------------5---
B-------------5---
G-------------6---
D-------------7---
A-------------7---
E---9--8--7--5---

Je crois que le gros de la chanson doit se jouer avec ces accords la

Fa# - A ? B - Fa#

Je continu de la travailler....aidez moi si vous le pouvez...


scritch (Marvel's Machine Man)
2002-12-31 11:18
Inscrit: Dec 07, 2002 Messages: 229
Email | répondre en citant
Salut Max!
Alors voilà, j'ai buché un peu sur cette toune pour t'aider un p'tit peu, et voilà ce que ça donne...
(c'est un peu fouilli car je ne sais pas bien ecrire les partitions, surtout sur un ordi!!!)
(suffit aussi de savoir que les X signifient une corde étouffée, enfin même si c'est pas ça dans la vraie nomenclature, c'est ce que j'ai voulu dire en tout cas!!!)


Intro

E----------------------------------------------------------- - ---
B---------2--0---0--2--------------------------------------- - -
G------2-------2-------2-----------1-----1------------------ - -
D---2---------------------4-----2-----2-----4--3----------
A------------------------------------------------------5---4 - ---
E----------------------------------------------------------- - ---


- partie 1 -


E---5-----X-----3-----2-----
B---5-----X-----3-----2-----
G---6-----4-----4-----2-----
D---7-----4-----5-----4-----
A---7-----X-----5-----4-----
E---5-----4-----3-----2-----

- partie 2 -

E---5-----X-----X-----2-----
B---5-----X-----2-----2-----
G---6-----4-----4-----2-----
D---7-----4-----3-----4-----
A---7-----X-----4-----4-----
E---5-----4-----X-----2-----

- partie 3 -

D - E - D - E - D - E - D - E - A

- partie 4 -

D - E - D - E - A-A-G#-G-

- partie 5 -

F#m - D - A - E - D - E - A

- partie 6 -

E---9----10---9----X----9----10---9----10---5---
B---10---10---10---X----10---10---10---10---5---
G---11---11---11---11---11---11---11---11---6---
D---11---12---11---10---11---12---11---12---7---
A---9----12---9----X----9----12---9----12---7---
E--------10--------10--------10--------10---5---



...et l'enchainement de la chanson doit faire un truc comme ça :

intro
parties 1 - 2 - 3 - 1 - 2 - 4 - 5 - 6 - 1 - 2 - etc etc

voilà mon gars...j'espère que j'aurais pu t'aider sur ce coup là...(même si tous les accords ne sont pas exacts, je le sais...)

scritch (depuis la france)



scritch (Marvel's Machine Man)
2002-12-31 11:23
Inscrit: Dec 07, 2002 Messages: 229
Email | répondre en citant
désolé ça a un peu merdé sur la partie 6, j'essaie de te la remmetre comme il faut...


- partie 6 -

E---9-----10---9-----X-----9-----10---9-----10---5---
B---10---10---10---X-----10---10---10---10---5---
G---11---11---11---11---11---11---11---11---6---
D---11---12---11---10---11---12---11---12---7---
A---9-----12---9-----X-----9-----12---9-----12---7---
E--------10--------10--------10--------10---5---




scritch (Marvel's Machine Man)
2002-12-31 11:25
Inscrit: Dec 07, 2002 Messages: 229
Email | répondre en citant
allez une dernière tentative et puis j'arrete!!!


- partie 6 -

E---9-----10---9-----X-----9-----10---9-----10---5---
B---10---10---10---X-----10---10---10---10---5---
G---11---11---11---11---11---11---11---11---6---
D---11---12---11---10---11---12---11---12---7---
A---9-----12---9-----X-----9-----12---9-----12---7---
E---------10---------10---------10---------10-----5---




maxthewax (Membre)
2002-12-31 17:50
Inscrit: Dec 28, 2002 Messages: 42
Email | répondre en citant
Merci scritch.....jessais de mettre ca en partition et je t'en redonne des nouvelles....encore merci

Réponse
Fermer ce Sujet Fermer ce Sujet Déplacer ce Sujet Effacer ce Sujet

Powered by phpBB Version 1.4.4
Copyright © 2000 - 2001 The phpBB Group
phpBB Created this page in 0.045 seconds.